ISO-10303-21;
HEADER;
FILE_DESCRIPTION (( 'STEP AP203' ),
    '1' );
FILE_NAME ('End Cap SDR11_001 117 0140 0180.step',
    '2019-12-16T11:41:10',
    ( '' ),
    ( '' ),
    'SwSTEP 2.0',
    'SolidWorks 2019',
    '' );
FILE_SCHEMA (( 'CONFIG_CONTROL_DESIGN' ));
ENDSEC;

DATA;
#1 = DIRECTION ( 'NONE',  ( -0.0000000000000000000, -1.000000000000000000, -0.0000000000000000000 ) ) ;
#2 = DIRECTION ( 'NONE',  ( 0.0000000000000000000, 0.0000000000000000000, -1.000000000000000000 ) ) ;
#3 = AXIS2_PLACEMENT_3D ( 'NONE', #269, #54, #162 ) ;
#4 = APPLICATION_PROTOCOL_DEFINITION ( 'international standard', 'config_control_design', 1994, #7 ) ;
#5 = VERTEX_POINT ( 'NONE', #298 ) ;
#6 = PERSON_AND_ORGANIZATION_ROLE ( 'design_owner' ) ;
#7 = APPLICATION_CONTEXT ( 'configuration controlled 3d designs of mechanical parts and assemblies' ) ;
#8 = ORIENTED_EDGE ( 'NONE', *, *, #227, .F. ) ;
#9 = DATE_AND_TIME ( #226, #213 ) ;
#10 = ORIENTED_EDGE ( 'NONE', *, *, #176, .T. ) ;
#11 =( GEOMETRIC_REPRESENTATION_CONTEXT ( 3 ) GLOBAL_UNCERTAINTY_ASSIGNED_CONTEXT ( ( #245 ) ) GLOBAL_UNIT_ASSIGNED_CONTEXT ( ( #288, #267, #246 ) ) REPRESENTATION_CONTEXT ( 'NONE', 'WORKASPACE' ) );
#12 = TOROIDAL_SURFACE ( 'NONE', #129, -2.703311677658925216, 253.6008751917496795 ) ;
#13 = SECURITY_CLASSIFICATION_LEVEL ( 'unclassified' ) ;
#14 = LOCAL_TIME ( 14, 41, 10.00000000000000000, #297 ) ;
#15 = EDGE_LOOP ( 'NONE', ( #8, #193, #247 ) ) ;
#16 = APPROVAL_DATE_TIME ( #233, #191 ) ;
#17 = CARTESIAN_POINT ( 'NONE',  ( 0.0000000000000000000, 0.0000000000000000000, -90.00000000000000000 ) ) ;
#18 = DIRECTION ( 'NONE',  ( 0.0000000000000000000, 0.0000000000000000000, -1.000000000000000000 ) ) ;
#19 = EDGE_CURVE ( 'NONE', #36, #5, #183, .T. ) ;
#20 = DIRECTION ( 'NONE',  ( 0.0000000000000000000, 0.0000000000000000000, -1.000000000000000000 ) ) ;
#21 = CARTESIAN_POINT ( 'NONE',  ( 73.59999999999999432, 0.0000000000000000000, 0.0000000000000000000 ) ) ;
#22 = CARTESIAN_POINT ( 'NONE',  ( 9.013400441724517002E-15, 0.0000000000000000000, 73.59999999999998010 ) ) ;
#23 = CARTESIAN_POINT ( 'NONE',  ( -3.773023560249555430E-14, 133.1369088953572657, 0.0000000000000000000 ) ) ;
#24 = DIRECTION ( 'NONE',  ( 0.0000000000000000000, 0.0000000000000000000, -1.000000000000000000 ) ) ;
#25 = APPLICATION_CONTEXT ( 'configuration controlled 3d designs of mechanical parts and assemblies' ) ;
#26 = EDGE_CURVE ( 'NONE', #5, #36, #172, .T. ) ;
#27 = CC_DESIGN_APPROVAL ( #212, ( #261 ) ) ;
#28 = DIRECTION ( 'NONE',  ( -1.224646799147353454E-16, 0.0000000000000000000, -1.000000000000000000 ) ) ;
#29 = EDGE_LOOP ( 'NONE', ( #53, #214, #249 ) ) ;
#30 = TOROIDAL_SURFACE ( 'NONE', #157, -2.703311677658925216, 270.0000000000000000 ) ;
#31 = VERTEX_POINT ( 'NONE', #144 ) ;
#32 = PERSON_AND_ORGANIZATION_ROLE ( 'creator' ) ;
#33 = VERTEX_POINT ( 'NONE', #234 ) ;
#34 = PERSON_AND_ORGANIZATION_ROLE ( 'creator' ) ;
#35 = APPROVAL ( #294, 'BELÝRTÝLMEMÝÞ' ) ;
#36 = VERTEX_POINT ( 'NONE', #17 ) ;
#37 = COORDINATED_UNIVERSAL_TIME_OFFSET ( 3, 0, .AHEAD. ) ;
#38 = DIRECTION ( 'NONE',  ( 0.0000000000000000000, 0.0000000000000000000, -1.000000000000000000 ) ) ;
#39 = DIRECTION ( 'NONE',  ( -0.0000000000000000000, -1.000000000000000000, -0.0000000000000000000 ) ) ;
#40 = ADVANCED_FACE ( 'NONE', ( #116 ), #164, .F. ) ;
#41 = CYLINDRICAL_SURFACE ( 'NONE', #134, 73.59999999999998010 ) ;
#42 = FACE_OUTER_BOUND ( 'NONE', #190, .T. ) ;
#43 = PERSON ( 'BELÝRTÝLMEMÝÞ', 'BELÝRTÝLMEMÝÞ', 'BELÝRTÝLMEMÝÞ', ('BELÝRTÝLMEMÝÞ'), ('BELÝRTÝLMEMÝÞ'), ('BELÝRTÝLMEMÝÞ') ) ;
#44 = DIRECTION ( 'NONE',  ( -0.0000000000000000000, -1.000000000000000000, -0.0000000000000000000 ) ) ;
#45 = CARTESIAN_POINT ( 'NONE',  ( 0.0000000000000000000, 0.0000000000000000000, 0.0000000000000000000 ) ) ;
#46 = AXIS2_PLACEMENT_3D ( 'NONE', #133, #222, #2 ) ;
#47 = CYLINDRICAL_SURFACE ( 'NONE', #73, 73.59999999999998010 ) ;
#48 = ADVANCED_FACE ( 'NONE', ( #299 ), #30, .T. ) ;
#49 = CIRCLE ( 'NONE', #46, 73.59999999999999432 ) ;
#50 = AXIS2_PLACEMENT_3D ( 'NONE', #159, #244, #28 ) ;
#51 = LOCAL_TIME ( 14, 41, 10.00000000000000000, #37 ) ;
#52 = DIRECTION ( 'NONE',  ( 0.0000000000000000000, 0.0000000000000000000, -1.000000000000000000 ) ) ;
#53 = ORIENTED_EDGE ( 'NONE', *, *, #290, .F. ) ;
#54 = DIRECTION ( 'NONE',  ( 0.0000000000000000000, 0.0000000000000000000, 1.000000000000000000 ) ) ;
#55 = ORIENTED_EDGE ( 'NONE', *, *, #81, .F. ) ;
#56 = CIRCLE ( 'NONE', #50, 270.0000000000000000 ) ;
#57 = AXIS2_PLACEMENT_3D ( 'NONE', #186, #266, #52 ) ;
#58 = DATE_AND_TIME ( #272, #179 ) ;
#59 = EDGE_LOOP ( 'NONE', ( #223, #254, #83 ) ) ;
#60 = EDGE_CURVE ( 'NONE', #114, #87, #154, .T. ) ;
#61 = DATE_AND_TIME ( #274, #112 ) ;
#62 = VERTEX_POINT ( 'NONE', #117 ) ;
#63 = PERSON_AND_ORGANIZATION ( #43, #130 ) ;
#64 = DIRECTION ( 'NONE',  ( 0.0000000000000000000, 0.0000000000000000000, -1.000000000000000000 ) ) ;
#65 = CIRCLE ( 'NONE', #57, 89.99999999999998579 ) ;
#66 = VECTOR ( 'NONE', #287, 1000.000000000000000 ) ;
#67 = DIRECTION ( 'NONE',  ( 0.0000000000000000000, 0.0000000000000000000, -1.000000000000000000 ) ) ;
#68 = CARTESIAN_POINT ( 'NONE',  ( 0.0000000000000000000, -136.8495576283806656, 2.703311677658925216 ) ) ;
#69 = PRODUCT_DEFINITION_FORMATION_WITH_SPECIFIED_SOURCE ( 'HERHANGÝ', '', #258, .NOT_KNOWN. ) ;
#70 = FACE_OUTER_BOUND ( 'NONE', #139, .T. ) ;
#71 = DIRECTION ( 'NONE',  ( -1.224646799147353207E-16, 0.0000000000000000000, -1.000000000000000000 ) ) ;
#72 = DIRECTION ( 'NONE',  ( -1.000000000000000000, 0.0000000000000000000, 0.0000000000000000000 ) ) ;
#73 = AXIS2_PLACEMENT_3D ( 'NONE', #155, #241, #24 ) ;
#74 = EDGE_CURVE ( 'NONE', #87, #5, #217, .T. ) ;
#75 = VECTOR ( 'NONE', #1, 1000.000000000000000 ) ;
#76 = CARTESIAN_POINT ( 'NONE',  ( 0.0000000000000000000, 0.0000000000000000000, -73.59999999999999432 ) ) ;
#77 = AXIS2_PLACEMENT_3D ( 'NONE', #305, #72, #182 ) ;
#78 = ORIENTED_EDGE ( 'NONE', *, *, #227, .T. ) ;
#79 = ORIENTED_EDGE ( 'NONE', *, *, #270, .F. ) ;
#80 = APPROVAL_ROLE ( '' ) ;
#81 = EDGE_CURVE ( 'NONE', #271, #62, #147, .T. ) ;
#82 = CIRCLE ( 'NONE', #77, 253.6008751917496795 ) ;
#83 = ORIENTED_EDGE ( 'NONE', *, *, #60, .F. ) ;
#84 = AXIS2_PLACEMENT_3D ( 'NONE', #98, #205, #285 ) ;
#85 = AXIS2_PLACEMENT_3D ( 'NONE', #45, #152, #240 ) ;
#86 = APPROVAL_ROLE ( '' ) ;
#87 = VERTEX_POINT ( 'NONE', #175 ) ;
#88 = CALENDAR_DATE ( 2019, 16, 12 ) ;
#89 = CARTESIAN_POINT ( 'NONE',  ( 0.0000000000000000000, -136.8495576283806656, 0.0000000000000000000 ) ) ;
#90 = TOROIDAL_SURFACE ( 'NONE', #84, -2.703311677658925216, 270.0000000000000000 ) ;
#91 = DIRECTION ( 'NONE',  ( -0.0000000000000000000, -1.000000000000000000, -0.0000000000000000000 ) ) ;
#92 = CARTESIAN_POINT ( 'NONE',  ( 0.0000000000000000000, -136.8495576283806656, 0.0000000000000000000 ) ) ;
#93 = CARTESIAN_POINT ( 'NONE',  ( 0.0000000000000000000, 105.0000000000000426, 0.0000000000000000000 ) ) ;
#94 = CC_DESIGN_DATE_AND_TIME_ASSIGNMENT ( #9, #110, ( #261 ) ) ;
#95 = AXIS2_PLACEMENT_3D ( 'NONE', #204, #284, #71 ) ;
#96 = CC_DESIGN_SECURITY_CLASSIFICATION ( #158, ( #69 ) ) ;
#97 = DIRECTION ( 'NONE',  ( 0.0000000000000000000, 0.0000000000000000000, -1.000000000000000000 ) ) ;
#98 = CARTESIAN_POINT ( 'NONE',  ( 0.0000000000000000000, -136.8495576283806656, 0.0000000000000000000 ) ) ;
#99 = ADVANCED_FACE ( 'NONE', ( #259 ), #41, .F. ) ;
#100 = CIRCLE ( 'NONE', #95, 253.6008751917496795 ) ;
#101 = AXIS2_PLACEMENT_3D ( 'NONE', #219, #304, #97 ) ;
#102 = LINE ( 'NONE', #207, #66 ) ;
#103 = CIRCLE ( 'NONE', #101, 73.59999999999996589 ) ;
#104 = AXIS2_PLACEMENT_3D ( 'NONE', #262, #44, #151 ) ;
#105 = VECTOR ( 'NONE', #123, 1000.000000000000000 ) ;
#106 = ORIENTED_EDGE ( 'NONE', *, *, #281, .T. ) ;
#107 = APPLICATION_PROTOCOL_DEFINITION ( 'international standard', 'config_control_design', 1994, #25 ) ;
#108 = ADVANCED_FACE ( 'NONE', ( #120 ), #12, .F. ) ;
#109 = EDGE_LOOP ( 'NONE', ( #296, #225, #135, #291 ) ) ;
#110 = DATE_TIME_ROLE ( 'creation_date' ) ;
#111 = ORIENTED_EDGE ( 'NONE', *, *, #198, .F. ) ;
#112 = LOCAL_TIME ( 14, 41, 10.00000000000000000, #192 ) ;
#113 = PERSON_AND_ORGANIZATION ( #43, #130 ) ;
#114 = VERTEX_POINT ( 'NONE', #302 ) ;
#115 = SHAPE_DEFINITION_REPRESENTATION ( #200, #230 ) ;
#116 = FACE_OUTER_BOUND ( 'NONE', #275, .T. ) ;
#117 = CARTESIAN_POINT ( 'NONE',  ( 9.013400441724518579E-15, 0.0000000000000000000, 73.59999999999999432 ) ) ;
#118 = AXIS2_PLACEMENT_3D ( 'NONE', #93, #202, #282 ) ;
#119 = CIRCLE ( 'NONE', #118, 73.59999999999996589 ) ;
#120 = FACE_OUTER_BOUND ( 'NONE', #15, .T. ) ;
#121 = EDGE_CURVE ( 'NONE', #210, #114, #127, .T. ) ;
#122 = DIRECTION ( 'NONE',  ( 0.0000000000000000000, -1.000000000000000000, -0.0000000000000000000 ) ) ;
#123 = DIRECTION ( 'NONE',  ( -0.0000000000000000000, -1.000000000000000000, -0.0000000000000000000 ) ) ;
#124 = AXIS2_PLACEMENT_3D ( 'NONE', #21, #122, #218 ) ;
#125 = AXIS2_PLACEMENT_3D ( 'NONE', #68, #177, #260 ) ;
#126 = FACE_OUTER_BOUND ( 'NONE', #59, .T. ) ;
#127 = CIRCLE ( 'NONE', #125, 270.0000000000000000 ) ;
#128 = PRODUCT_RELATED_PRODUCT_CATEGORY ( 'detail', '', ( #258 ) ) ;
#129 = AXIS2_PLACEMENT_3D ( 'NONE', #92, #201, #280 ) ;
#130 = ORGANIZATION ( 'BELÝRTÝLMEMÝÞ', 'BELÝRTÝLMEMÝÞ', '' ) ;
#131 = LINE ( 'NONE', #221, #75 ) ;
#132 = CC_DESIGN_DATE_AND_TIME_ASSIGNMENT ( #195, #276, ( #158 ) ) ;
#133 = CARTESIAN_POINT ( 'NONE',  ( 0.0000000000000000000, 0.0000000000000000000, 0.0000000000000000000 ) ) ;
#134 = AXIS2_PLACEMENT_3D ( 'NONE', #146, #236, #20 ) ;
#135 = ORIENTED_EDGE ( 'NONE', *, *, #250, .T. ) ;
#136 = ADVANCED_FACE ( 'NONE', ( #42, #150 ), #237, .T. ) ;
#137 = VERTEX_POINT ( 'NONE', #303 ) ;
#138 = COORDINATED_UNIVERSAL_TIME_OFFSET ( 3, 0, .AHEAD. ) ;
#139 = EDGE_LOOP ( 'NONE', ( #293, #106, #141, #167 ) ) ;
#140 = PERSON_AND_ORGANIZATION ( #43, #130 ) ;
#141 = ORIENTED_EDGE ( 'NONE', *, *, #270, .T. ) ;
#142 = AXIS2_PLACEMENT_3D ( 'NONE', #199, #279, #67 ) ;
#143 = CALENDAR_DATE ( 2019, 16, 12 ) ;
#144 = CARTESIAN_POINT ( 'NONE',  ( -7.727477043432469909E-15, 116.7369088953572316, 0.0000000000000000000 ) ) ;
#145 = DIRECTION ( 'NONE',  ( 0.0000000000000000000, 0.0000000000000000000, -1.000000000000000000 ) ) ;
#146 = CARTESIAN_POINT ( 'NONE',  ( 0.0000000000000000000, 0.0000000000000000000, 0.0000000000000000000 ) ) ;
#147 = CIRCLE ( 'NONE', #142, 73.59999999999999432 ) ;
#148 = EDGE_CURVE ( 'NONE', #137, #33, #119, .T. ) ;
#149 = VECTOR ( 'NONE', #91, 1000.000000000000000 ) ;
#150 = FACE_BOUND ( 'NONE', #273, .T. ) ;
#151 = DIRECTION ( 'NONE',  ( 0.0000000000000000000, 0.0000000000000000000, -1.000000000000000000 ) ) ;
#152 = DIRECTION ( 'NONE',  ( -0.0000000000000000000, -1.000000000000000000, -0.0000000000000000000 ) ) ;
#153 = AXIS2_PLACEMENT_3D ( 'NONE', #174, #235, #18 ) ;
#154 = CIRCLE ( 'NONE', #153, 89.99999999999998579 ) ;
#155 = CARTESIAN_POINT ( 'NONE',  ( 0.0000000000000000000, 0.0000000000000000000, 0.0000000000000000000 ) ) ;
#156 = CC_DESIGN_PERSON_AND_ORGANIZATION_ASSIGNMENT ( #251, #32, ( #261 ) ) ;
#157 = AXIS2_PLACEMENT_3D ( 'NONE', #257, #39, #145 ) ;
#158 = SECURITY_CLASSIFICATION ( '', '', #13 ) ;
#159 = CARTESIAN_POINT ( 'NONE',  ( -3.310601993142664500E-16, -136.8495576283806656, -2.703311677658925216 ) ) ;
#160 = ADVANCED_FACE ( 'NONE', ( #70 ), #180, .T. ) ;
#161 = ORIENTED_EDGE ( 'NONE', *, *, #250, .F. ) ;
#162 = DIRECTION ( 'NONE',  ( 1.000000000000000000, 0.0000000000000000000, 0.0000000000000000000 ) ) ;
#163 = AXIS2_PLACEMENT_3D ( 'NONE', #89, #197, #278 ) ;
#164 = TOROIDAL_SURFACE ( 'NONE', #163, -2.703311677658925216, 253.6008751917496795 ) ;
#165 = ORIENTED_EDGE ( 'NONE', *, *, #301, .T. ) ;
#166 = APPROVAL_DATE_TIME ( #58, #212 ) ;
#167 = ORIENTED_EDGE ( 'NONE', *, *, #26, .F. ) ;
#168 = APPROVAL_DATE_TIME ( #61, #35 ) ;
#169 = ORIENTED_EDGE ( 'NONE', *, *, #301, .F. ) ;
#170 = APPROVAL_STATUS ( 'not_yet_approved' ) ;
#171 = AXIS2_PLACEMENT_3D ( 'NONE', #173, #256, #38 ) ;
#172 = CIRCLE ( 'NONE', #171, 90.00000000000000000 ) ;
#173 = CARTESIAN_POINT ( 'NONE',  ( 0.0000000000000000000, 0.0000000000000000000, 0.0000000000000000000 ) ) ;
#174 = CARTESIAN_POINT ( 'NONE',  ( 0.0000000000000000000, 116.7369088953572316, 0.0000000000000000000 ) ) ;
#175 = CARTESIAN_POINT ( 'NONE',  ( 1.102182119232617753E-14, 116.7369088953572316, 89.99999999999998579 ) ) ;
#176 = EDGE_CURVE ( 'NONE', #33, #62, #239, .T. ) ;
#177 = DIRECTION ( 'NONE',  ( -1.000000000000000000, 0.0000000000000000000, 0.0000000000000000000 ) ) ;
#178 = AXIS2_PLACEMENT_3D ( 'NONE', #196, #277, #64 ) ;
#179 = LOCAL_TIME ( 14, 41, 10.00000000000000000, #189 ) ;
#180 = CYLINDRICAL_SURFACE ( 'NONE', #104, 90.00000000000000000 ) ;
#181 = FACE_OUTER_BOUND ( 'NONE', #187, .T. ) ;
#182 = DIRECTION ( 'NONE',  ( 0.0000000000000000000, 0.0000000000000000000, 1.000000000000000000 ) ) ;
#183 = CIRCLE ( 'NONE', #178, 90.00000000000000000 ) ;
#184 = CLOSED_SHELL ( 'NONE', ( #108, #220, #206, #242, #99, #136, #160, #48, #40 ) ) ;
#185 = EDGE_CURVE ( 'NONE', #33, #137, #103, .T. ) ;
#186 = CARTESIAN_POINT ( 'NONE',  ( 0.0000000000000000000, 116.7369088953572316, 0.0000000000000000000 ) ) ;
#187 = EDGE_LOOP ( 'NONE', ( #208, #232, #252, #79 ) ) ;
#188 = ORIENTED_EDGE ( 'NONE', *, *, #148, .T. ) ;
#189 = COORDINATED_UNIVERSAL_TIME_OFFSET ( 3, 0, .AHEAD. ) ;
#190 = EDGE_LOOP ( 'NONE', ( #216, #228 ) ) ;
#191 = APPROVAL ( #170, 'BELÝRTÝLMEMÝÞ' ) ;
#192 = COORDINATED_UNIVERSAL_TIME_OFFSET ( 3, 0, .AHEAD. ) ;
#193 = ORIENTED_EDGE ( 'NONE', *, *, #198, .T. ) ;
#194 = CC_DESIGN_PERSON_AND_ORGANIZATION_ASSIGNMENT ( #113, #215, ( #158 ) ) ;
#195 = DATE_AND_TIME ( #88, #14 ) ;
#196 = CARTESIAN_POINT ( 'NONE',  ( 0.0000000000000000000, 0.0000000000000000000, 0.0000000000000000000 ) ) ;
#197 = DIRECTION ( 'NONE',  ( -0.0000000000000000000, -1.000000000000000000, -0.0000000000000000000 ) ) ;
#198 = EDGE_CURVE ( 'NONE', #31, #33, #100, .T. ) ;
#199 = CARTESIAN_POINT ( 'NONE',  ( 0.0000000000000000000, 0.0000000000000000000, 0.0000000000000000000 ) ) ;
#200 = PRODUCT_DEFINITION_SHAPE ( 'NONE', 'NONE',  #261 ) ;
#201 = DIRECTION ( 'NONE',  ( -0.0000000000000000000, -1.000000000000000000, -0.0000000000000000000 ) ) ;
#202 = DIRECTION ( 'NONE',  ( -0.0000000000000000000, -1.000000000000000000, -0.0000000000000000000 ) ) ;
#203 = APPROVAL_PERSON_ORGANIZATION ( #63, #191, #255 ) ;
#204 = CARTESIAN_POINT ( 'NONE',  ( -3.310601993142664500E-16, -136.8495576283806656, -2.703311677658925216 ) ) ;
#205 = DIRECTION ( 'NONE',  ( -0.0000000000000000000, -1.000000000000000000, -0.0000000000000000000 ) ) ;
#206 = ADVANCED_FACE ( 'NONE', ( #181 ), #263, .T. ) ;
#207 = CARTESIAN_POINT ( 'NONE',  ( 0.0000000000000000000, 0.0000000000000000000, -90.00000000000000000 ) ) ;
#208 = ORIENTED_EDGE ( 'NONE', *, *, #60, .T. ) ;
#209 = PERSON_AND_ORGANIZATION ( #43, #130 ) ;
#210 = VERTEX_POINT ( 'NONE', #23 ) ;
#211 = PERSON_AND_ORGANIZATION ( #43, #130 ) ;
#212 = APPROVAL ( #292, 'BELÝRTÝLMEMÝÞ' ) ;
#213 = LOCAL_TIME ( 14, 41, 10.00000000000000000, #138 ) ;
#214 = ORIENTED_EDGE ( 'NONE', *, *, #121, .T. ) ;
#215 = PERSON_AND_ORGANIZATION_ROLE ( 'classification_officer' ) ;
#216 = ORIENTED_EDGE ( 'NONE', *, *, #19, .T. ) ;
#217 = LINE ( 'NONE', #300, #149 ) ;
#218 = DIRECTION ( 'NONE',  ( 0.0000000000000000000, 0.0000000000000000000, -1.000000000000000000 ) ) ;
#219 = CARTESIAN_POINT ( 'NONE',  ( 0.0000000000000000000, 105.0000000000000426, 0.0000000000000000000 ) ) ;
#220 = ADVANCED_FACE ( 'NONE', ( #126 ), #90, .T. ) ;
#221 = CARTESIAN_POINT ( 'NONE',  ( 0.0000000000000000000, 0.0000000000000000000, -73.59999999999998010 ) ) ;
#222 = DIRECTION ( 'NONE',  ( -0.0000000000000000000, -1.000000000000000000, -0.0000000000000000000 ) ) ;
#223 = ORIENTED_EDGE ( 'NONE', *, *, #121, .F. ) ;
#224 = PERSON_AND_ORGANIZATION ( #43, #130 ) ;
#225 = ORIENTED_EDGE ( 'NONE', *, *, #148, .F. ) ;
#226 = CALENDAR_DATE ( 2019, 16, 12 ) ;
#227 = EDGE_CURVE ( 'NONE', #31, #137, #82, .T. ) ;
#228 = ORIENTED_EDGE ( 'NONE', *, *, #26, .T. ) ;
#229 = PERSON_AND_ORGANIZATION_ROLE ( 'design_supplier' ) ;
#230 = ADVANCED_BREP_SHAPE_REPRESENTATION ( 'End Cap SDR11_001 117 0140 0180', ( #306, #3 ), #11 ) ;
#231 = CC_DESIGN_APPROVAL ( #191, ( #158 ) ) ;
#232 = ORIENTED_EDGE ( 'NONE', *, *, #74, .T. ) ;
#233 = DATE_AND_TIME ( #143, #51 ) ;
#234 = CARTESIAN_POINT ( 'NONE',  ( 9.013400441724517002E-15, 105.0000000000000426, 73.59999999999996589 ) ) ;
#235 = DIRECTION ( 'NONE',  ( -0.0000000000000000000, -1.000000000000000000, -0.0000000000000000000 ) ) ;
#236 = DIRECTION ( 'NONE',  ( -0.0000000000000000000, -1.000000000000000000, -0.0000000000000000000 ) ) ;
#237 = PLANE ( 'NONE',  #124 ) ;
#238 = CC_DESIGN_PERSON_AND_ORGANIZATION_ASSIGNMENT ( #140, #229, ( #69 ) ) ;
#239 = LINE ( 'NONE', #22, #105 ) ;
#240 = DIRECTION ( 'NONE',  ( 0.0000000000000000000, 0.0000000000000000000, -1.000000000000000000 ) ) ;
#241 = DIRECTION ( 'NONE',  ( -0.0000000000000000000, -1.000000000000000000, -0.0000000000000000000 ) ) ;
#242 = ADVANCED_FACE ( 'NONE', ( #264 ), #47, .F. ) ;
#243 = APPROVAL_PERSON_ORGANIZATION ( #211, #35, #86 ) ;
#244 = DIRECTION ( 'NONE',  ( 1.000000000000000000, 0.0000000000000000000, -1.224646799147353207E-16 ) ) ;
#245 = UNCERTAINTY_MEASURE_WITH_UNIT (LENGTH_MEASURE( 1.000000000000000082E-05 ), #288, 'distance_accuracy_value', 'NONE');
#246 =( NAMED_UNIT ( * ) SI_UNIT ( $, .STERADIAN. ) SOLID_ANGLE_UNIT ( ) );
#247 = ORIENTED_EDGE ( 'NONE', *, *, #185, .T. ) ;
#248 = MECHANICAL_CONTEXT ( 'NONE', #7, 'mechanical' ) ;
#249 = ORIENTED_EDGE ( 'NONE', *, *, #281, .F. ) ;
#250 = EDGE_CURVE ( 'NONE', #137, #271, #131, .T. ) ;
#251 = PERSON_AND_ORGANIZATION ( #43, #130 ) ;
#252 = ORIENTED_EDGE ( 'NONE', *, *, #19, .F. ) ;
#253 = PERSON_AND_ORGANIZATION ( #43, #130 ) ;
#254 = ORIENTED_EDGE ( 'NONE', *, *, #290, .T. ) ;
#255 = APPROVAL_ROLE ( '' ) ;
#256 = DIRECTION ( 'NONE',  ( -0.0000000000000000000, -1.000000000000000000, -0.0000000000000000000 ) ) ;
#257 = CARTESIAN_POINT ( 'NONE',  ( 0.0000000000000000000, -136.8495576283806656, 0.0000000000000000000 ) ) ;
#258 = PRODUCT ( 'End Cap SDR11_001 117 0140 0180', 'End Cap SDR11_001 117 0140 0180', '', ( #248 ) ) ;
#259 = FACE_OUTER_BOUND ( 'NONE', #109, .T. ) ;
#260 = DIRECTION ( 'NONE',  ( 0.0000000000000000000, 0.0000000000000000000, 1.000000000000000000 ) ) ;
#261 = PRODUCT_DEFINITION ( 'BÝLÝNMEYEN', '', #69, #265 ) ;
#262 = CARTESIAN_POINT ( 'NONE',  ( 0.0000000000000000000, 0.0000000000000000000, 0.0000000000000000000 ) ) ;
#263 = CYLINDRICAL_SURFACE ( 'NONE', #85, 90.00000000000000000 ) ;
#264 = FACE_OUTER_BOUND ( 'NONE', #268, .T. ) ;
#265 = DESIGN_CONTEXT ( 'detailed design', #25, 'design' ) ;
#266 = DIRECTION ( 'NONE',  ( -0.0000000000000000000, -1.000000000000000000, -0.0000000000000000000 ) ) ;
#267 =( NAMED_UNIT ( * ) PLANE_ANGLE_UNIT ( ) SI_UNIT ( $, .RADIAN. ) );
#268 = EDGE_LOOP ( 'NONE', ( #289, #10, #165, #161 ) ) ;
#269 = CARTESIAN_POINT ( 'NONE',  ( 0.0000000000000000000, 0.0000000000000000000, 0.0000000000000000000 ) ) ;
#270 = EDGE_CURVE ( 'NONE', #114, #36, #102, .T. ) ;
#271 = VERTEX_POINT ( 'NONE', #76 ) ;
#272 = CALENDAR_DATE ( 2019, 16, 12 ) ;
#273 = EDGE_LOOP ( 'NONE', ( #55, #169 ) ) ;
#274 = CALENDAR_DATE ( 2019, 16, 12 ) ;
#275 = EDGE_LOOP ( 'NONE', ( #111, #78, #188 ) ) ;
#276 = DATE_TIME_ROLE ( 'classification_date' ) ;
#277 = DIRECTION ( 'NONE',  ( -0.0000000000000000000, -1.000000000000000000, -0.0000000000000000000 ) ) ;
#278 = DIRECTION ( 'NONE',  ( 0.0000000000000000000, 0.0000000000000000000, -1.000000000000000000 ) ) ;
#279 = DIRECTION ( 'NONE',  ( -0.0000000000000000000, -1.000000000000000000, -0.0000000000000000000 ) ) ;
#280 = DIRECTION ( 'NONE',  ( 0.0000000000000000000, 0.0000000000000000000, -1.000000000000000000 ) ) ;
#281 = EDGE_CURVE ( 'NONE', #87, #114, #65, .T. ) ;
#282 = DIRECTION ( 'NONE',  ( 0.0000000000000000000, 0.0000000000000000000, -1.000000000000000000 ) ) ;
#283 = CC_DESIGN_APPROVAL ( #35, ( #69 ) ) ;
#284 = DIRECTION ( 'NONE',  ( 1.000000000000000000, 0.0000000000000000000, -1.224646799147353207E-16 ) ) ;
#285 = DIRECTION ( 'NONE',  ( 0.0000000000000000000, 0.0000000000000000000, -1.000000000000000000 ) ) ;
#286 = CC_DESIGN_PERSON_AND_ORGANIZATION_ASSIGNMENT ( #253, #34, ( #69 ) ) ;
#287 = DIRECTION ( 'NONE',  ( -0.0000000000000000000, -1.000000000000000000, -0.0000000000000000000 ) ) ;
#288 =( LENGTH_UNIT ( ) NAMED_UNIT ( * ) SI_UNIT ( .MILLI., .METRE. ) );
#289 = ORIENTED_EDGE ( 'NONE', *, *, #185, .F. ) ;
#290 = EDGE_CURVE ( 'NONE', #210, #87, #56, .T. ) ;
#291 = ORIENTED_EDGE ( 'NONE', *, *, #81, .T. ) ;
#292 = APPROVAL_STATUS ( 'not_yet_approved' ) ;
#293 = ORIENTED_EDGE ( 'NONE', *, *, #74, .F. ) ;
#294 = APPROVAL_STATUS ( 'not_yet_approved' ) ;
#295 = APPROVAL_PERSON_ORGANIZATION ( #209, #212, #80 ) ;
#296 = ORIENTED_EDGE ( 'NONE', *, *, #176, .F. ) ;
#297 = COORDINATED_UNIVERSAL_TIME_OFFSET ( 3, 0, .AHEAD. ) ;
#298 = CARTESIAN_POINT ( 'NONE',  ( 1.102182119232617911E-14, 0.0000000000000000000, 90.00000000000000000 ) ) ;
#299 = FACE_OUTER_BOUND ( 'NONE', #29, .T. ) ;
#300 = CARTESIAN_POINT ( 'NONE',  ( 1.102182119232617911E-14, 0.0000000000000000000, 90.00000000000000000 ) ) ;
#301 = EDGE_CURVE ( 'NONE', #62, #271, #49, .T. ) ;
#302 = CARTESIAN_POINT ( 'NONE',  ( 0.0000000000000000000, 116.7369088953572316, -89.99999999999998579 ) ) ;
#303 = CARTESIAN_POINT ( 'NONE',  ( 0.0000000000000000000, 105.0000000000000426, -73.59999999999996589 ) ) ;
#304 = DIRECTION ( 'NONE',  ( -0.0000000000000000000, -1.000000000000000000, -0.0000000000000000000 ) ) ;
#305 = CARTESIAN_POINT ( 'NONE',  ( 0.0000000000000000000, -136.8495576283806656, 2.703311677658925216 ) ) ;
#306 = MANIFOLD_SOLID_BREP ( 'Döndür1', #184 ) ;
#307 = CC_DESIGN_PERSON_AND_ORGANIZATION_ASSIGNMENT ( #224, #6, ( #258 ) ) ;
ENDSEC;
END-ISO-10303-21;
